Make your own free website on Tripod.com

El Tri

TRISTE CANCION

Alex Lora

PARA LOS AMANTES DEL ROCK URBANO

(INTRO SAX)

 

e-5------------5------------------------|-5---------12---

B-----6------6---8--5H6P5---------------|-----6--------13

G---7----5-7--------------5H6P5--3H4P3--|---7---5-7------

D---------------------------------------|----------------

A---------------------------------------|----------------

E---------------------------------------|----------------

 

e-5--------------------5--|-------10-13-10----|----------

B-----6-6-----------6-----|--8-12----------13-|-11-11-10-

G---7-----5-7---5-7-------|-------------------|----------

D-------------------------|-------------------|----------

A-------------------------|-------------------|----------

E-------------------------|-------------------|----------

 

e------15-13---------15-13--------15-13-----------|-----

B-15-13--------15-13--------15-13--------15-13-15-|-----

G-------------------------------------------------|-----

D-------------------------------------------------|-----

A-------------------------------------------------|-----

E-------------------------------------------------|-----

 

e-------------------------|

B-13P11P10----------------|

G----------12P10P9--------|

D--------------------12/--|

A-------------------------|

E-------------------------|

Dm----------------------- C

Ella existió solo en un sueño

Dm -----------------------Am

el es un poema que el poeta nunca escribió

 

Dm---------------------------------- C

en la eternidad los dos unieron sus almas

Bb --------------------A----------------- Dm

para darle vida a esta triste canción de amor

Dm---------------------------------- C

El es como el mar, ella es como la luna

Dm -----------------------------------Am

y en las noches de luna llena hacen el amor

Dm------------------------------------ C

y en la inmensidad los dos unieron sus almas

Bb------------------- A ------------------Dm

para darle vida a esta triste canción de amor

(sax)

(solo)

Dm ------------------------------------C

El es como un Dios, ella es como una virgen

Dm------------------------------Am

y los Dioses les enseñaron a pecar

Dm----------------------------- C

y en la eternidad los dos unieron sus almas

Bb-----------------A --------------------Dm

para darle vida a esta triste canción de amor

(sigue el circulo)

 

Colaboración de ISRAEL PEUGNET

(isra_peugnet@mixmail.com)