Make your own free website on Tripod.com

LAMENTO BOLIVIANO

(ENANITOS VERDES)

 

 

Em

ME QUIEREN AGITAR ME INCITAN A GRITAR

Bm

SOY COMO UNA ROCA PALABRAS NO ME TOCAN

Am

ADENTRO AY UN VOLCAN QUE PRONTO VA ESTALLAR

Em------------------- B7

YO QUIERO ESTAR TRANQUILO

Em

ES MI SITUACION UNA DESOLACIÓN

Bm

SOY COMO UN LAMENTO, LAMENTO BOLIVIANO

Am-

QUE UN DIA EMPEZO Y NO VA A TERMINAR

Em--------------- B7

Y A NADIE HACE DAÑO

Em- Bm

WHO YOH

Am -----Em

YHO YHO YHO

-----------B7

YEAH YEAH YEAH

Em -----------------------Bm

Y YO ESTOY AQUI BORRACHO Y LOCO

Am ----------------------------Em

Y MI CORAZON IDIOTA SIEMPRE BRILLARA

---------------B7

SIEMPRE BRILLARA

Em------------------------- Bm

Y YO TE AMARE, TE AMARE POR SIEMPRE

Am---------------------------------- Em

NENA NO TE PEINES EN LA CAMA QUE LOS VIAJANTES

------------B7

SE VAN A CASAR

 

e----0-2-3-2-0------0/3-2-0---2---------12-10-12---------

B--0-----------0-0/3--------3-----12-12---------12/10----

G-------------------------------2---------------------12-

D--------------------------------------------------------

A--------------------------------------------------------

E--------------------------------------------------------

 

e-----------------------------------------15-14-12-15-14-

B--10----10----------------------------17---------------

G-----12----12-11-12-11-------------16-------------------

D--------------------------------17----------------------

A-----------------------14-13-14-------------------------

E--------------------------------------------------------

 

e--12----------------------------------------15-15-14-12-

B-----12/10/9/10------10-12-10----10-12-10---------------

G----------------9-12----------12----------12------------

D--------------------------------------------------------

A--------------------------------------------------------

E--------------------------------------------------------

 

e--15----14----12----------------------------------------

B-----14----13----10-12----------------------------------

G-----------------------12-9-----------------------------

4--------------------------------------------------------

5--------------------------------------------------------

6--------------------------------------------------------

 

Em- Bm

WHO YOH

Am -----Em

YHO YHO YHO

-----------B7

YEAH YEAH YEAH

Em -----------------------Bm

Y YO ESTOY AQUI BORRACHO Y LOCO

Am ----------------------------Em

Y MI CORAZON IDIOTA SIEMPRE BRILLARA

---------------B7

SIEMPRE BRILLARA

Em------------------------- Bm

Y YO TE AMARE, TE AMARE POR SIEMPRE

Am---------------------------------- Em

NENA NO TE PEINES EN LA CAMA QUE LOS VIAJANTES

------------B7

SE VAN A CASAR

Em- Bm

WHO YOH

Am -----Em

YHO YHO YHO

-----------B7

YEAH YEAH YEAH

Em -----------------------Bm

Y YO ESTOY AQUI BORRACHO Y LOCO

Am ----------------------------Em

Y MI CORAZON IDIOTA SIEMPRE BRILLARA

---------------B7

SIEMPRE BRILLARA

Em------------------------- Bm

Y YO TE AMARE, TE AMARE POR SIEMPRE

Am---------------------------------- Em

NENA NO TE PEINES EN LA CAMA QUE LOS VIAJANTES

------------B7

SE VAN A CASAR

e--------------------------------8--------------10-7-----

B--8-7-------8-7---------------8---10------8-10------8-7-

G------9-7-9-----9-7-9----8-10--------7-10---------------

D----------------------10--------------------------------

A--------------------------------------------------------

E--------------------------------------------------------

 

e--------------12----------------------------------------

B--------------------------------------------------------

G--9-7-9-7-7---------------------------------------------

D------------9-------------------------------------------

A--------------------------------------------------------

E--------------------------------------------------------

Colaboración de Jose Pereda

jopeto@correoweb.com