Make your own free website on Tripod.com

DEJAD QUE LAS NIÑAS SE ACERQUEN A MI

(HOMBRES G)

INTRO

e---------------------17-19-17-15-17---------------------

B--12/15--17-15-17-15----------------12/15-17-15-17---15-

G---------------------------------------------------14---

D--------------------------------------------------------

A--------------------------------------------------------

E--------------------------------------------------------

 

e------------------------14-17-19-17-15-17---------------

B---13----12/15-17-15-17-------------------12/15-17-15---

G------14------------------------------------------------

D--------------------------------------------------------

A--------------------------------------------------------

E--------------------------------------------------------

 

e--------------------------------------------------------

B---17----15---------------------------------------------

G------------17-14---------------------------------------

D------17----------17------------------------------------

A--------------------------------------------------------

E--------------------------------------------------------

G --------------------------------C

No soporto a las niñas que todas las canciones le

------------D

recuerden algo

G ---------------------------------------C

Que se creen que soy drogadicto porque llevo unos zapatos

-----D C# C

raros

C --------------Am Am# Bm C

Yo núnca he sabido------------ decir nada bonito y soy un

-----------------D

chico muy tímido

G -----------------------C ----------------------D

Si me voy de bronca por las noches me quedo dormido

G -----------------C ---------------------D C# C

Me despido fácilmente y parezco entristecido

C---------------------- Am Am# Bm

Me encantan los guateques----------- tocar el clarinete

C---------------------------------D

Y no me pierdo el libro gordo de petete

 

G----------------- D--------- C --------------D

Baila con nosotros salta que no os de vergüenza

G------------------D ---------C ------------D

Quiero una sonrisa para esa niña de la trenza

G----------- D ----------C ------------D----Am

Ya se que solamente soy un sin vergüenza

D ---------C----------- D--------------- G

Pero dejad que las niñas se acerquen a mi

Intro

 

Olvídate de tu mal carácter y enróllate con la de a'lante

Ahora mismo fuera de esta sala no hay nada importante

Y quítate los guantes fuera ese abrigo

no te preocupes estamos contigo

nunca digas frase demasiados trascendentales

curiosea, busca pega tu nariz en los cristales

y cuando estemos solos respira el aire hondo

y vive la música hasta el fondo

baila con noso.............

Colaboración de Jose Pereda

jopeto2000@hotmail.com