Make your own free website on Tripod.com

SALON DE ACORDES


AUN PASO DE SER TODO UN GUITARRISTA

--Acá encontraras algunos acordes(si es que no los sabes) con estos tocaras todas los temas que acá te ofrezco, no te desesperes, estoy seguro que en un día te puedes aprender los mayores, en otro día los menores y en otro las séptimas. Las bolitas indican donde debes poner los dedos, los números(1,2,3,4,5,6)son las cuerdas(no olvidar que 1 es la primera cuerda,2 la segunda y ...) y los números romanos significa en que traste(el traste es el espacio que hay entre dos fierritos que están en el mástil de tu guitarra), como puedes ver hay muchos, por lo tanto hay varios trastes, todas estos acordes están hechas con los primeros traste así que no va ver mucha dificultad para aprenderlos, practícalos.



DOM=DO MAYOR

--VI...III...II...I
|----|----|----|----|---6
|----|--
0-|----|----|---5
|----|----|--
0-|----|---4
|----|----|----|----|---3
|----|----|----|--
0-|---2
|----|----|----|----|---1

REM


--VI...III...II...I
|----|----|----|----|--6
|----|----|----|----|--5
|----|----|----|----|--4
|----|----|--
0-|----|--3
|----|--
0-|----|----|--2
|----|----|--
0-|----|--1

MIM


--VI...III...II...I
|----|----|----|----|--6
|----|----|-
0--|----|--5
|----|----|-
0--|----|--4
|----|----|----|-
0--|--3
|----|----|----|----|--2
|----|----|----|----|--1

FAM


..VI..III...II...I
|----|----|----|-
0--|--6
|----|-
0--|----|-0--|--5
|----|-
0--|----|-0--|--4
|----|----|-
0--|-0--|--3
|----|----|----|-
0--|--2
|----|----|----|-
0--|--1

Nota: En el FAM a si como en otras notas se usan puentes, que los tienes que hacer con el dedo índice(en el FAM por ejemplo, en trate I, el índice esta representado por esa fila de círculos tienes que presionar todas las cuerdas con ese dedo, y las otras con los dedos restantes)

SOLM


..VI..III...II...I
|----|-
0--|----|----|--6
|----|----|-
0--|----|--5
|----|----|----|----|--4
|----|----|----|----|--3
|----|----|----|----|--2
|----|-
0--|----|----|--1

LAM

..VI..III...II...I
|----|----|----|----|--6
|----|----|----|----|--5
|----|----|-
0--|----|--4
|----|----|-
0--|----|--3
|----|----|-
0--|----|--2
|----|----|----|----|--1

SIM


..VI..III...II...I
|----|----|--
0-|----|--6
|----|----|--
0-|----|--5
|-
0--|----|--0-|----|--4
|-
0--|----|--0-|----|--3|
|-
0--|----|--0-|----|--2
|----|----|--
0-|----|--1



Ahora vamos con los acordes menores:

dom=do menor

..IIV..IV...V....VI..III...II...I
|----|----|----|----|-
0--|----|----|--6
|----|----|----|----|-
0--|----|----|--5
|----|----|-
0--|----|-0--|----|----|--4
|----|----|-
0--|----|-0--|----|----|--3
|----|----|-
---|-0--|-0--|----|----|--2
|----|----|----|----|-
0--|----|----|--1

rem


..IIV..IV...V....VI..III...II...I
|----|----|----|----|----|----|----|--6
|----|----|----|----|----|----|----|--5
|----|----|----|----|----|----|----|--4
|----|----|----|----|----|--
0-|----|--3
|----|----|----|----|--
0-|----|----|--2
|----|----|----|----|----|----|--
0-|--1


mim


..IIV..IV...V....VI..III...II...I
|----|----|----|----|----|----|----|--6
|----|----|----|----|----|-
0--|----|--5
|----|----|----|----|----|-
0--|----|--4
|----|----|----|----|----|----|----|--3
|----|----|----|----|----|----|----|--2
|----|----|----|----|----|----|----|--1


fam


..IIV..IV...V....VI..III...II...I
|----|----|----|----|----|----|-
0--|--6
|----|----|----|----|-
0--|----|-0--|--5
|----|----|----|----|-
0--|----|-0--|--4
|----|----|----|----|----|----|-
0--|--3
|----|----|----|----|----|----|-
0--|--2
|----|----|----|----|----|----|-
0--|--1


solm


..IIV..IV...V....VI..III...II...I
|----|----|----|----|-
0--|----|----|--6
|----|----|-
0--|----|-0--|----|----|--5
|----|----|-
0--|----|-0--|----|----|--4
|----|----|----|----|-
0--|----|----|--3
|----|----|----|----|-
0--|----|----|--2
|----|----|----|----|-
0--|----|----|--1


lam


..IIV..IV...V....VI..III...II...I
|----|----|----|----|----|----|----|--6
|----|----|----|----|----|----|----|--5
|----|----|----|----|----|--
0-|----|--4
|----|----|----|----|----|--
0-|----|--3
|----|----|----|----|----|----|--
0-|--2
|----|----|----|----|----|----|----|--1


sim


..IIV..IV...V....VI..III...II...I
|----|----|----|----|----|-
0--|----|--6
|----|----|----|----|----|-
0--|----|--5
|----|----|----|-
0--|----|-0--|----|--4
|----|----|----|-
0--|----|-0--|----|--3
|----|----|----|----|-
0--|-0--|----|--2
|----|----|----|----|----|-
0--|----|--1



Ahora las séptimas mayores


DOM7=DO MAYOR

..IIV..IV...V....VI..III...II...I
|----|----|----|----|----|----|----|--6
|----|----|----|----|-
0--|----|----|--5
|----|----|----|----|----|-
0--|----|--4
|----|----|----|----|-
0--|----|----|--3
|----|----|----|----|----|----|-
0--|--2
|----|----|----|----|----|----|----|--1


REM7


..IIV..IV...V....VI..III...II...I
|----|----|----|----|----|----|----|--6
|----|----|----|----|----|----|----|--5
|----|----|----|----|----|----|----|--4
|----|----|----|----|----|-
0--|----|--3
|----|----|----|----|----|----|-
0--|--2
|----|----|----|----|----|-
0--|----|--1


MIM7

..IIV..IV...V....VI..III...II...I
|----|----|----|----|----|----|----|--6
|----|----|----|----|----|-
0--|----|--5
|----|----|----|----|----|----|----|--4
|----|----|----|----|----|----|-
0--|--3
|----|----|----|----|-
0--|----|----|--2
|----|----|----|----|----|----|----|--1


FAM7

..IIV..IV...V....VI..III...II...I
|----|----|----|----|----|----|-
0--|--6
|----|----|----|----|-
0--|----|-0--|--5
|----|----|----|----|----|----|-
0--|--4
|----|----|----|----|----|-
0--|-0--|--3
|----|----|----|-
0--|----|----|----|--2
|----|----|----|----|----|----|-
0--|--1


SOLM7

..IIV..IV...V....VI..III...II...I
|----|----|----|----|-
0--|----|----|--6
|----|----|----|----|----|-
0--|----|--5
|----|----|----|----|----|----|----|--4
|----|----|----|----|----|----|----|--3
|----|----|----|----|----|----|----|--2
|----|----|----|----|----|----|-
0--|--1


LAM7

..IIV..IV...V....VI..III...II...I
|----|----|----|----|----|----|----|--6
|----|----|----|----|----|----|----|--5
|----|----|----|----|----|-
0--|----|--4
|----|----|----|----|----|----|----|--3
|----|----|----|----|----|-
0--|----|--2
|----|----|----|----|----|----|----|--1


SIM7

 

..IIV..IV...V....VI..III...II...I
|----|----|----|----|----|----|----|--6
|----|----|----|----|----|-
0--|----|--5
|----|----|----|----|----|----|-
0--|--4
|----|----|----|----|----|-
0--|----|--3
|----|----|----|----|----|----|----|--2
|----|----|----|----|----|-
0--|----|--1


Ahora las séptimas menores


dom7=do menor séptima

..IIV..IV...V....VI..III...II...I
|----|----|----|----|----|----|----|--6
|----|----|----|----|-
0--|----|-0--|--5
|----|----|----|----|----|----|-
0--|--4
|----|----|----|----|-
0--|----|-0--|--3
|----|----|----|----|----|----|-
0--|--2
|----|----|----|----|-
0--|----|-0--|--1


rem7

..IIV..IV...V....VI..III...II...I
|----|----|----|----|----|----|----|--6
|----|----|----|----|----|----|----|--5
|----|----|----|----|----|----|----|--4
|----|----|----|----|----|-
0--|----|--3
|----|----|----|----|----|----|-
0--|--2
|----|----|----|----|----|----|-
0--|--1


mim7

..IIV..IV...V....VI..III...II...I
|----|----|----|----|-
0--|----|----|--6
|----|----|----|----|----|-
0--|----|--5
|----|----|----|----|----|-
0--|----|--4
|----|----|----|----|----|----|----|--3
|----|----|----|----|-
0--|----|----|--2
|----|----|----|----|----|----|----|--1

fam7


..IIV..IV...V....VI..III...II...I
|----|----|----|----|----|----|-
0--|--6
|----|----|----|----|-
0--|----|-0--|--5
|----|----|----|----|-
0--|----|-0--|--4
|----|----|----|----|----|----|-
0--|--3
|----|----|----|-
0--|----|----|-0--|--2
|----|----|----|----|----|----|-
0--|--1


solm7

..IIV..IV...V....VI..III...II...I
|----|----|----|----|-
0--|----|----|--6
|----|----|-
0--|----|-0--|----|----|--5
|----|----|-
0--|----|-0--|----|----|--4
|----|----|----|----|-
0--|----|----|--3
|----|-
0--|----|----|-0--|----|----|--2
|----|----|----|----|-
0--|----|----|--1


lam7

..IIV..IV...V....VI..III...II...I
|----|----|----|----|----|----|----|--6
|----|----|----|----|----|----|----|--5
|----|----|----|----|----|-
0--|----|--4
|----|----|----|----|----|-
0--|----|--3
|----|----|----|----|----|----|-
0--|--2
|----|----|----|----|-
0--|----|----|--1


sim7

..IIV..IV...V....VI..III...II...I
|----|----|----|----|----|----|----|--6
|----|----|----|----|----|-
0--|----|--5
|----|----|----|----|----|----|----|--4
|----|----|----|----|----|-
0--|----|--3
|----|----|----|----|----|----|----|--2
|----|----|----|----|----|-
0--|----|--1


Bueno ahora tienes que prestar mucha atención a lo que te voy a explicar, cundo te pongan por ahí en alguna canción REM# esto significa RE MAYOR sostenida que quiere decir que el REM normal (el que está arriba) tienes que tocarla corriendo un traste hacia el cajón de la guitarra, en el ejemplo REM es así:


REM

..IIV..IV...V....VI..III...II...I
|----|----|----|----|----|----|----|--6
|----|----|----|----|----|----|----|--5
|----|----|----|----|----|----|----|--4
|----|----|----|----|----|-
0--|----|--3
|----|----|----|----|-
0--|----|----|--2
|----|----|----|----|----|-
0--|----|--1

ahora un REM# sería:

REM#

..IIV..IV...V....VI..III...II...I
|----|----|----|----|----|----|-
0--|--6
|----|----|----|----|----|----|-
0--|--5
|----|----|----|----|----|----|-
0--|--4
|----|----|----|----|-
0--|----|-0--|--3
|----|----|----|-
0--|----|----|-0--|--2
|----|----|----|----|-
0--|----|-0--|--1


Ves como pongo un puente en el primer traste para que la nota RE se vaya hacia el cajón de tu guitarra y a si se transforma en RE#. Ahora si encuentras por ejemplo un Reb, esto significa RE bemol que es todo lo contrario o sea que no corres un traste hacia el cajón de tu guitarra, sino hacia los clavijeros, por ejemplo:


dom=do menor

..IIV..IV...V....VI..III...II...I
|----|----|----|----|-
0--|----|----|--6
|----|----|----|----|-
0--|----|----|--5
|----|----|-
0--|----|-0--|----|----|--4
|----|----|-
0--|----|-0--|----|----|--3
|----|----|----|-
0--|-0--|----|----|--2
|----|----|----|----|-
0--|----|----|--1

ahora el domb sería:


domb=do menor bemol

..IIV..IV...V....VI..III...II...I
|----|----|----|----|----|-
0--|----|--6
|----|----|----|----|----|-
0--|----|--5
|----|----|----|-
0--|----|-0--|----|--4
|----|----|----|-
0--|----|-0--|----|--3
|----|----|----|----|-
0--|-0--|----|--2
|----|----|----|----|----|-
0--|----|--1


si te das cuenta esto seria un
sim o sea que el domb = sim


Y otra cosa que debes saber es que todas las notas tienen sostenida(#) excepto las notas "MI y SI" ya sean mayores o menores o séptimas.


DO--DO# -RE- RE#- MI--FA--FA#--SOL--SOL#--LA--LA#--SI--DO


La
primera cuerda al aire (sin tocar ningún traste) es MI
La
segunda cuerda al aire es SI
La tercera cuerda al aire es SOL
La
cuarta cuerda al aire es RE
La
quinta cuerda al aire es LA
La
sexta cuerda al aire es MI

 

Hay otra nomenclatura para las notas que no se te va a ser difícil aprenderlas, le ponen una sola letra a las notas por ejemplo:


A = LA
B = SI
C = DO
D = RE
E = MI
F = FA
G = SOL


Osea si tienes
G# sería un SOLM#

Un
Cm# sería un dom#


Para facilitar el estudio del mástil (a que nota corresponde cada traste) incluyo aquí una representación del mástil con la notación correspondiente a cada nota/traste.



IIX..IX...X....XI..VIII..VII..VI...V....VI...III..II...I
E--|-D#-|-D--|-C#-|-C--|-B--|-A#-|-A--|-G#-|-G--|-F#-|-F--|-E(6)
A--|-G#-|-G--|-F#-|-F--|-E--|-D#-|-D--|-C#-|-C--|-B--|-A#-|-A(5)
D--|-C#-|-C--|-B--|-A#-|-A--|-G#-|-G--|-F#-|-F--|-E--|-D#-|-D(4)
G--|-F#-|-F--|-E--|-D#-|-D--|-C#-|-C--|-B--|-A#-|-A--|-G#-|-G(3)
B--|-A#-|-A--|-G#-|-G--|-F#-|-F--|-E--|-D#-|-D--|-C#-|-C--|-B(2)
E--|-D#-|-D--|-C#-|-C--|-B--|-A#-|-A--|-G#-|-G--|-F#-|-F--|-E(1)


Esto de los bemoles los usaras muy poco pero con lo que te he dicho es suficiente por ahora, hay muchisimos más acordes pero con estos podrás tocar todas tus canciones favoritas practícalos con las canciones que hay aquí y te a seguro que serás uno de los mejores en la viola.

 

 

HOME................ TAB.................. GRUPOS

Puedes escribirme a mi dirección de E-MAIL: jopeto2000@hotmail.com