Make your own free website on Tripod.com

LUNES OTRA VEZ

SUI GENERIS

 

e--------------------------

B---------------------3-2--

G--4-4-4-4-4-4-4-4---------

D-------------------5------

A--------------------------

E--------------------------

 

G----------------C----------G---G------------------C----------G

LUNES OTRA VEZ SOBRE LA CIUDAD, LA GENTE QUE VES VIVE EN SOLEDAD

G--D----Em----------C-------------D--------G----------------C--------G

SBRE EL BOSQUE GRIS VEO MORIR AL SOL QUE MAÑANA SOBRE LA AVENIDA NACERA

 

e------------------------------3--3--3----

B------0-3/5-3-0------------------1-------

G--0-2------------0-2-0---0---------------

D-----------------------2-----------------

A------------------------------2--2--2----

E------------------------------3--3--3----

 

G----------------C-------------G---G------------------C----------G

CALLES SIN COLOR VESTIDAS DE GRIS, DESDE MI VENTANA VEO EL VERDE TAPIZ

G--D----Em----------C--------D--------G------------------C--------G

DE UNA PLAZA QUE MAÑANA MORIRA Y MUERTO EL VERDE SOLO HIERRO CRECERA

 

e------------------------------3--3--3----

B------0-3/5-3-0------------------1-------

G--0-2------------0-2-0---0---------------

D-----------------------2-----------------

A------------------------------2--2--2----

E------------------------------3--3--3----

 

C7-----------------------------------G7

VIEJAS EN LA ESQUINA MENDIGAN SU PAN EN LAS OFICINAS MUERTE EN SOCIEDAD

C7-----------------------------------------------------------------D7---G

TODOS CIEGOS HOY SIN SABER MIRAR LA ESPANTOSA RISA DE LA PALIDA CIUDAD

 

G--C--G

G--C--G

G--Em--C--D

G--C--G

 

G----------------C----------G---G------------------C----------G

LUNES OTRA VEZ SOBRE LA CIUDAD, LA GENTE QUE VES VIVE EN SOLEDAD

G----D---Em---------C----------D7--G----------------------C-----------G

SIEMPRE SERA IGUAL NUNCA CAMBIARA LUNES ES EL DIA TRISTE GRIS DE SOLEDAD

 

Colaboración de jose pereda

Jopeto@correoweb.com