Make your own free website on Tripod.com

Héroes del Silencio

MALAS INTENCIONES

 

 

1----0-------------------------0-------------------------

2--------3---2---3---3-------------3---2---3---3---------

3--2---2---2---2---0---------2---2---2---2---0-----------

4--------------------------------------------------------

5--------------------------------------------------------

6--------------------------------------------------------

 

1----0-------------------------0-------------------------

2--------3---2---3---3-------------3---2---3---3---------

3--2---2---2---2---0---------2---2---2---2---0-----------

4--------------------------------------------------------

5--------------------------------------------------------

6--------------------------------------------------------

 

1-----0----------3---------------------------------------

2----3----------5----------------------------------------

3---2----------4-----------------------------------------

4--0----------0------------------------------------------

5--------------------------------------------------------

6--------------------------------------------------------

 

----------Bm------------G----A

No me importa lo que pienses

----------Bm------------G----A

sin duda no me entero ya

----------Bm------------G----A

tus costumbres se me pierden

----------Bm---------------Fm#

entre arrumacos y amabilidad

----------Bm------------G----A

ahora se que no comprendes

----------Bm------------G----A

no tenemos nada en común

----------Bm------------------G----A

si supiera al menos lo que quieres

----------Bm---------------------A

no me obligues a cambiar mi actitud

 

Fm#---Bm------A-----Fm#

no quisiera utilizar

--G----------A

tus intenciones

Fm#---Bm--------A---Fm#

y, quisiera no pensar

------A

más de un segundo en ti

Bm--Em--A--(3 veces)

Bm--fm#--E

 

------Bm---------------G---A

me comentan lo que haces

------Bm------------------G---A

uno a uno me hablan mal de ti

------Bm-------------------G---A

nadie quiere hacer ya las paces

--------Bm-------------Fm#

no podría continuar así

------Bm---------------G---A

y ahora se que no comprendes

------Bm---------------G---A

no tenemos nada en común

------Bm---------------------G---A

si supiera al menos lo que quieres

------------Bm--------------------A

no me obligues a cambiar mi actitud

 

Fm#----Bm------A---Fm#

no quisiera utilizar

--G--------A

tus intenciones

Fm#------Bm-----A---Fm#

y, quisiera no pensar

------A

más de un segundo en ti

Bm--Em--A(3 veces)

Bm--Fm#--E

 

SOLO:

Bm--Em--A

Bm--Fm#--Em

Bm--Em--A--Fm#--A(2 veces)

D--A--D--G--A

CORO

 

Bm--G----------------A------Bm--G--A

más de un segundo en ti

Bm--G----------------A------Bm--Fm#--Bm

más de un segundo en ti

 

colaboración de jose pereda

jopeto@correoweb.com