Make your own free website on Tripod.com

MANUEL RAQUEL

TAM TAM GO

 

INTRO: Bm--A

-------Bm--A

 

--Bm-------A--------------Bm

CUANDO LLEGO ERA UN NIŅO DELICADO

-------------A---------------------Bm

NO QUERIA MANCHAR SUDANDO EN EL DESCAMPADO

--------------A--------G----------D

ERA UN TIPO LEGAL, UN AMIGO, UN ALIADO

Bm---A

Bm---A

 

--Bm-------------A--------------------Bm

HABIA VIVIDO ARROGANTE AQUEL ERROR INOCENTE

-----------------------A--------------------Bm

LLEVAR EN CUERPO DE HOMBRE UNA MUJER EN SU MENTE

--------------------A

EL, UN HOMBRE TRANQUILO

---G--------------D-----------A-------G

ELLA, UNA DAMA VALIENTE OH MANUEL RAQUEL

 

D---------A-------------G

MANUEL RAQUEL NO AGUANTO

----A--------------------D

SIQUIERA EL PRIMER INVIERNO

-D------------A----G

VOLANDO SOBRE UN TACON

----A------------Bm

DE LAS REDADAS HUYENDO

 

Bm-------------------A-----------------------Bm

LA ULTIMA VEZ QUE LE VI NOS FUIMOS A EMBORRACHAR

------------------A------------------Bm

DEBAJO DEL MAQUILLAJE NO PUDO DISIMULAR

-------------------A----------G--------------D

UN CIERTO PUDOR ANTIGUO Y AL FIN UN POCO DE PAZ

Bm---------------A---------------------Bm

QUISO VOLAR Y SALTO NO PUDO LLEGAR A TIEMPO

------------------A-------------------------Bm

LAS LAGRIMAS SIN DOLOR SE LAS ARRANCABA EL VIENTO

--------------------A--------G------------------D

SE FUE SIN DECIR A DIOS, SIN UN GRITO Y NI UN LAMENTO

-----------------A

CREO QUE VA CONTENTO

 

D---------A-----------G

MANUEL RAQUEL NO AGUANTO

---A----------------------D

SIQUIERA EL PRIMER INVIERNO

D---------A---------G-------A--------------Bm

LA DETUVIERON MIL VECES LA POBRE SE FUE ROMPIENDO

D---------A---------G-------A----------------Bm

ES MUY DIFICIL PASEAR DE INCOGNITO EN EL INFIERNO

 

-------Bm

OH MANUEL, OH RAQUEL

--------D

SE MARCHO, OH OH OH

------Bm

ES SOLO UN ABJA MAS

 

e----------------------------------------------------------------------------------

B------------------------------------------------------------------------------1---

G----------------------------0-3-5-3-1-0--------------------0----------------0---3-

D--0-1-1-1-1-1-1-1-1-0-0---1--------------3-1-0---1-------1---3-1-0--------1-------

A------------------------3----------------------3-----1-3--------------1-3----------

E---------------------------------------------------3----------------3--------------

 

e-------------------------------------------------------------------------

B----------------1-------------------------------------4------------1-----

G--1H3H1-------1---3-1-0--3-1-0----1-0---------------3------------0---3---

D--------0-1-3------------------3------3-1---------5---------0-1-3--------

A--------------------------------------------3-3/6---------3--------------

E-------------------------------------------------------------------------

 

D---------A-------------G

MANUEL RAQUEL NO AGUANTO

----A--------------------D

SIQUIERA EL PRIMER INVIERNO

-D------------A----G

VOLANDO SOBRE UN TACON

----A---------------Bm

LA POBRE SE FUE ROMPIENDO

 

------Bm

Y SE FUE SIN DISPARAR

------Bm

Y SE FUE SIN APUNTAR

------Bm

Y SE FUE SIN ACUSAR

------Bm

Y SE FUE SIN

------Bm

Y SE FUE SIN SEŅALAR

------Bm

Y SE FUE SIN SIMULAR

------Bm

Y SE FUE SIN MOLESTAR

Y SE FUE....

 

Colaboracion de jose pereda

Jopeto@correoweb.com