Make your own free website on Tripod.com

APRENDE A TOCAR CON TABLATURAS


 

DE UNA FORMA SENCILLA Y PRACTICA

---Mira con Los TABs vas a poder tocar tus punteos, ¿no te digo que vas a salir todo un experto en la guitarra que hasta punteos vas a ser? Bueno lo que tienes que a prender acá, es que el tabs es como una partitura que esta hecho para la guitarra, claro que no te da toda la información que te da una partitura, como por ejemplo los tiempos que tienes que tocar cada nota en el punteo, pero para eso tu tienes que haber escuchado antes la canción de la cual quieres tocar usando el tabs. El tabs esta compuesta de seis líneas horizontales que representan las seis cuerdas de la guitarra, la línea de arriba es la primera cuerda y la ultima línea es la sexta.


e------------------------------
primera cuerda
B------------------------------
segunda cuerda
G------------------------------
tercera cuerda
D------------------------------
cuarta cuerda
A------------------------------
quinta cuerda
E------------------------------
sexta cuerda


Ahora dentro de esta líneas van a estar representadas unos números que representan el traste al que tú debes tocar por ejemplo


e----1-------------------------
B------------------------------
G-------3----------------------
D----------5-------------------
A------------------------------
E------------------------------


Esto quiere decir de que tu debes comenzar a ser el punteo (o solo) de guitarra en la cuerda primera en el traste 1 después sigue la cuerda tercera en el traste 3, después sigues el la cuerda cuarta en el traste 5, como ves no es difícil solo tienes que seguir los números y ya esta hecha el punteo, ahora si tu ves una línea arriba que engancha varios números esto solo quiere decir que tocas la cuerda en el traste correspondiente y sin soltar la cuerda ni tocar de nuevo subes o bajas tu dedo(según los números)que está tocando la cuerda en el mástil en el número correspondiente, no te asustes, en el ejemplo lo vas a entender mejor:


Ahora pude ser que te encuentres con unos números encima de otras entonces estos tienes que tocarlos al mismo tiempo y también puede ser un acorde te darás cuenta por que ponen el nombre arriba ejemplo:


e--2---------------------------primera cuerda
B--3---------------------------segunda cuerda
G----4-------------------------tercera cuerda
D------------------------------cuarta cuerda
A------------------------------quinta cuerda
E------------------------------sexta cuerda


Bueno acá ves que hay dos notas una encima de otra sin dejar un espacio entonces esto lo tienes que tocar al mismo tiempo, o sea la primera cuerda en el traste 2 y la segunda cuerda en el traste 3, presionas las dos cuerdas juntas y las tocas al mismo tiempo y de ahí sigues normal con la otra nota que es la tercera cuerda en el traste 4.

Dom = cm


e----3--------------------------primera cuerda
B----4--------------------------segunda cuerda
G----5--------------------------tercera cuerda
D----5--------------------------cuarta cuerda
A----3--------------------------quinta cuerda
E-------------------------------sexta cuerda


Esto es un acorde, ¿ves arriba? Va el nombre del acorde y abajo como se ponen los dedos según los números, con la practica podrás dominarlo, bien hay mucho más para aprender pero con esto estoy seguro que sorprenderás en tu barrio.

 

¿Cómo leer los "tabs"?

 

Tablas de acorde

 

Definiciones del "tabulado"

 

Afinado

 

Para los menos familiarizados con la nomenclatura americana:

 

DO  ------  C

RE  ------  D

MI  ------  E

FA  ------  F

SOL ------  G

LA  ------  A

SI  ------  B

 

Los tabs se representan, mediante lineas, las cuerdas de una guitarra (o un bajo), donde desde arriba hacia abajo son representadas desde la sexta cuerda (cuarta para el bajo), hasta la primera, que sería la linea de más arriba.  I mean:

 

e-|------------------|   1ª cuerda / string

B-|------------------|   2ª cuerda / string

G-|------------------|   3ª cuerda / string

D-|------------------|   4ª cuerda / string

A-|------------------|   5ª cuerda / string

E-|------------------|   6ª cuerda / string

 

Los números que aparecen en las distintas lineas, indican el traste donde deben ser pisadas, si se encuentran alineados, evidentemente hay que pisarlas al mismo tiempo.

Ejemplo:

 

e-|------------------|

B-|-----------1------|

G-|-3----------------|

D-|-----2-------0----|

A-|------------------|

E-|------------------|

 

En este ejemplo habría que tocar la 3a cuerda en el 3er traste,

después la 4a en el segundo,seguida de la segunda en el primero,

y después la 4a cuerda sin pulsar sobre ella.

A lo largo de esta página encontrarás la palabra "cejilla", ¿qué es esto?, es fácil, se trata de pisar con un mismo dedo (generalmente el dedo índice), todas (o las que se indiquen) cuerdas de un mismo traste. Por ejemplo, echa un vistazo al acorde de FA menor (Fm).

 

Tablas de acorde

 

Estos son todos los acordes basicos puestos en tabulado:.

 

  E5      F5        F#5 G5  G#5A5       A#5 B5  C5  C#5D5       D#5 

|----------------------------------------------------------------------|

|--------------------------------------------------------------3-------|

|------9--------10--------------------2---3---4---5---6---7----2---8---|

|-2----9---3----10---4---5---6---7----2---3---4---5---6---7-ó--0---8---|

|-2-or-7---3-ó---8---4---5---6---7-ó--0---1---2---3---4---5--------6---|

|-0--------1---------2---3---4---5-------------------------------------|

 

Acordes mayores

 

(Las cejillas no estan incluidas, excepto para F)

 

--E   F   G   A   B  C   D

|-0---1---3---0---2---0---2-|

|-0---1---0---2---4---1---3-|

|-1---2---0---2---4---0---2-|

|-2---3---0---2---4---2---0-|

|-2---3---2---0---2---3-----|

|-0---1---3-----------0-----|

 

Acordes menores

 

  Em  Fm  Gm  Am  Bm  Cm  Dm

|-0---1---3---0---2---3---1-|

|-0---1---3---1---3---4---3-|

|-0---1---3---2---4---5---2-|

|-2---3---0---2---4---5---0-|

|-2---3-------0-------------|

|-0---1---------------------|

 

Afinado

 

Afinado estandar: E A D G B E

 

Como obtenerlo: Afina la primera con un afinador o con otra guitarra

Afina la cuerda A al 5th traste de la primera cuerda

Afina la cuerda D al 5th traste de la segunda

Afina la cuerda G al 5th traste de la tercera

Afina la cuerda B al 4th traste de la cuarta

Afina la cuerda high E en el 5th traste de la quinta

Down 1/2 Step (Bajar medio tono): Eb Ab Db Gb Bb Eb

Como hacerlo: Afina la primera como la segunda (A) en el sexto traste

Reafina las demas como en el estandar

Down A Whole Step (Bajar un tono entero): D G C F A D

Como hacerlo: La primera como la segunda en el septimo traste

Reafina las demas como en el estandar

Drop D: D A D G B E

Como conseguirlo: low E como la cuerda A en el sexto traste

 

 

Definicion del tabulado

 

Los siguientes simbolos son los que mas frecuentemente aparecen en los "tabs", en algunos puede que estos no signifiquen lo mismo, de todas maneras es muy usual que, en estos casos, la persona que lo ha hecho explique lo que realmente quieren significar.

 

He decidido ponerlo en inglés, porque asi es como mayormente

se conocen (y porque es mas fácil).

Para saber como se hacen: guia

 

)     = Bend 

/     = slide 

~~    = vibrato

h     = hammer on

p     = pulloff

PM    = Palm mute 

x\x   = pick scrape (rasgar con la pua)

NH    = Armonico natural (Natural armonic)

+     = Tremelo Pick

)     = Unison Bend

|     = Ghost Bend (Bend fantasma)

|\    = Ghost Bend and release  (Bend fantasma y soltar)

*     = Retroalimentacion descontrolada (Uncontrolled feedback)

 

 

 

PICK:

Se toca la nota con la pua o el pick presionando o no el mástil o diapasón.

 

E-|----5-------------|

B-|------------------|

G-|------------------|

D-|------------------|

A-|------------------|

E-|------------------|

 

BEND:

 

Se toca la primera nota y luego se estira la cuerda con el dedo que presiona el mástil hasta alcanzar un sonido de un medio tono , un tono completo o segun se indique.

 

E-|------------------|

B-|----5)------------|

G-|------------------|

D-|------------------|

A-|------------------|

E-|------------------|

 

HARMONICO NATURAL:

 

Se toca la cuerda ligeramente sin llegar a presionar con la mano que toca el mástil en el trasto que se indique y despues es tocada la nota.

 

Harm.

 

E-|----12NH----------|

B-|------------------|

G-|------------------|

D-|------------------|

A-|------------------|

E-|------------------|

 

HARMONICO ARTIFICIAL (PINCH):

 

Despues de que la nota es tocada normalmente , se toca ligeramente con la punta de el dedo de la mano que hace el pick , sin llegar a apagar el sonido de la nota (una octava más arriba de la nota tocada originalmente) para producir el sonido de un harmónico. (pinch) A.H.

 

E-|----9-------------|

B-|------------------|

G-|------------------|

D-|------------------|

A-|------------------|

E-|------------------|

 

PALM MUTE:

 

La nota es ligeramente apagada con el filo de la mano que hace el pick mientras esta esta tocando las notas.

 

E-|------------------|

B-|------------------|

G-|------------------|

D-|------------------|

A-|------------------|

E-|--0--0--0--0------|

 

SLIDE:

 

Se toca la nota primera nota y se corre el dedo hasta un trasto másarriba o más abajo segun sea el caso.La segunda nota no es tocada con la mano que hace el pick.

 

E-|------------------|

B-|----5/8-----------|

G-|------------------|

D-|------------------|

A-|------------------|

E-|------------------|

 

SLIDE PICK:

Es lo mismo que el slide solo que la segunda nota si es tocada.

 

E-|------------------|

B-|----5/8-----------|

G-|------------------|

D-|------------------|

A-|------------------|

E-|------------------|

 

 

SLIDE LARGO:

 

Se hace el pick durante el slide hasta alcanzar la nota deseada.

 

E-|------------------|

B-|----/5------------|

G-|------------------|

D-|------------------|

A-|------------------|

E-|------------------|

 

SLIDE OFF:

 

Es el slide largo solo que hacia abajo.

 

E-|------------------|

B-|----5/----\5------|

G-|------------------|

D-|------------------|

A-|------------------|

E-|------------------|

 

PICK SLIDE:

Con el filo de el pick (pua) se presiona sobre los trastos y se hace el slide.

 

E-|------------------|

B-|----x\------------|

G-|------------------|

D-|------------------|

A-|------------------|

E-|------------------|

 

HAMMER-ON:

 

Se toca la primera nota y la segunda se hace sonar por medio de un tap (presionar el trasto de la guitarra y lograr un sonido sin necesidad de hacer un pick) la segunda nota.

 

E-|------------------|

B-|----5h7-----------|

G-|------------------|

D-|------------------|

A-|------------------|

E-|------------------|

 

PULL-OFF:

 

Se colocan los dos dedos en las notas que se van a tocar , se toca la primera nota y se deja de presionar esta para dejar sonar la nota de más abajo. La segunda nota no es tocada con la mano que hace el pick.

 

E-|------------------|

B-|----7p5-----------|

G-|------------------|

D-|------------------|

A-|------------------|

E-|------------------|

 

TREMOLO PICKING:

 

La nota es tocada con la mano que hace el pick hacia arriba y hacia abajo lo más rápido que sea posible.

 

E-|------------------|

B-|----5-------------|

G-|----/-------------|

D-|----/-------------|

A-|----/-------------|

E-|------------------|

 

VIBRATO:

 

Se toca la nota y se hace vibrar con el vibrato o palanca de la guitarra, o bien haciendo un bend lo más rápido posible hacia arriba y hacia abajo.

 

E-|------------------|

B-|----5~------------|

G-|------------------|

D-|------------------|

A-|------------------|

E-|------------------|

 

TAPPING:

 

Se hace un tap con la mano que hace el pick y se deja sonar la cuerda.

 

E-|------------------|

B-|----t12p8p5-------|

G-|------------------|

D-|------------------|

A-|------------------|

E-|------------------|

 

HOME....................... ACORDES.................... GRUPOS

Puedes escribirme a mi dirección de E-MAIL: jopeto2000@hotmail.com